Ir al contenido principal

Última Publicación:

Aprende a Tocar la Guitarra: Guía Fácil.

En un sólo artículo te descubro "El Secreto" todas las claves necesarias, y es que ya no tienes excusa, después de leer el artículo de hoy, cumple tu sueño y aprende tocar la guitarra.

Aprende a Tocar la Guitarra: Guía Fácil. Quieres aprender a tocar la guitarra?  Ya lo tienes claro pero te preguntas: Cómo aprendo a tocar la guitarra?Por dónde empiezo a tocar la guitarra? DesdeGuitØff pongo sobre la mesa,  todo lo que necesitas para aprender a tocar la guitarra, siempre a tu ritmo, de la manera más rápida y sencilla.  En un sólo artículo te descubro "El Secreto" todas las claves necesarias, y es que ya no tienes excusa, después de leer el artículo de hoy, cumple tu sueño y aprende tocar la guitarra.

La Guitarra.
Sobre la Guitarra.La guitarra es un instrumento musical de cuerda. Compuesta por una caja de resonancia normalmente con un agujero en el centro, a la que se le añade un mástil, sobre el cual se coloca un diapasón, donde irán los trastes que al pulsar las cuerd…

Tablatura de... Ordinary Man. Ozzy Osbourne.

Tablatura fácil para guitarra de... Ordinary Man. Ozzy Osbourne.

  Después de 10 años Ozzy Osbourne vuelve a la carga con nuevo plástico, "Ordinary Man" llevará por título y verá la luz el 21 de Febrero.

  Hasta la fecha el ex de Black Sabbath ya nos ha presentado hasta tres temas del disco, en el último, que lleva por título el mismo que el que da nombre al disco, "Ordinary Man" ha colaborado nada más y nada menos que con Elton John:

  "Cuando estaba escribiendo "Ordinary Man", recordé una canción de Elton y le dije a mi esposa: "me pregunto si a él le gustaría cantar conmigo". Contacté con él y aquí estamos, él canta y toca el piano en la canción", declaraba Ozzy Osbourne.

  Hoy os quiero dejar un fragmento en tablatura del tema para que pases un buen rato y/o practiquéis con vuestra guitarra, junto a uno de los grandes del heavy metal.

  Un saludo.



Tablatura de... Ordinary Man. Ozzy Osbourne.

1.------------------------|
2.---------(HH)-----------|
3.-/7-6---7-9--7---7------|
4.------9--------9---9--/9|
5.------------------------|
6.------------------------|

1.-------7---9(10)(9)(10)(9)
2.-----7---7--------------|
3.-8h9--------------------|
4.------------------------|
5.------------------------|
6.------------------------|

1.-7----------------------|
2.---11--/15-14--12-15-15(17)
3.------------------------|
4.------------------------|
5.------------------------|
6.------------------------|

1.------------------------|
2.-15-12--15-12--(14)12--11
3.------------------------|
4.------------------------|
5.------------------------|
6.------------------------|

1.------------------------|
2.-11-12-14-14--12-12--15-15
3.------------------------|
4.------------------------|
5.------------------------|
6.------------------------|

1.------------------------14
2.-14-14--15-17-15--17(19)
3.------------------------|
4.------------------------|
5.------------------------|
6.------------------------|

1.---------------17-------|
2.-17(19)(17)-15-----21(22)
3.------------------------|
4.------------------------|
5.------------------------|
6.------------------------|

1.------------------------|
2.-20-19-20-19----19------|
3.-------------21----21-19
4.------------------------|
5.------------------------|
6.------------------------|

1.-------------|
2.-------------|
3.-21-19-18-19-|
4.-------------|
5.-------------|
6.-------------|...


Comentarios

Lo Más Buscado: